문득 오랜만에 이 노래를 들었을때,

당연스래 나의 고등학교 시절이 생각났다.

그래고 대학시절..

좋았던 시절.. 아쉬움도 많았던 시절.. 많이 몰랐던 시절..

물론 그 당시 많이 들었던 곡이여서 그렇지만

여러가지 기억들이 떠오르는 노래



미안해 널 미워해 이대로 인걸

이해해 넌 그렇게 그대로 인걸



미안해 널 미워해라고 말하지만 난 그럴 수 없이 이대로 인걸..

이해해 넌 그렇게 여전히 아름답게 빛나는 그대로 인걸..












Posted by 그래제길





사랑하는 사람에게 다른사람이 생겼지만 더 사랑하기 때문에 알지만 모른체 한다는 노래.

그 사람에게 내가 not the only one이라는거

슬프다. 보는 것 만으로도..  I know I'm not the only one






Posted by 그래제길

もっと・・・
조금 더...

西野カナ (니시노 카나)




[PV]
 


가사~



Posted by 그래제길

会いたくて 会いたくて
   보고 싶고, 보고 싶어서.

西野カナ (니시노 카나)



[PV]
 

가사~



2009年、ケータイ世代のカリスマガールとしてティーンを中心に一気にブレイクした西野カナのニューシングル!! 「君に会いたくなるから」を上回る、聴いた瞬間誰もが震え上がる最強☆号泣シングル! 楽曲プロデュースは西野カナヒットシングルにはもはや鉄板のGIORGIOが担当。「会いたくて 会いたくて」は”ジェム・ケリー”CMソングに決定!


収録曲
  1. 会いたくて 会いたくて
  2. LOVE IS BLIND
  3. Grab Bag


Posted by 그래제길
君に会いたくなるから
니가 보고싶어 지니까..


西野カナ  (니시노 카나)






가사~




Posted by 그래제길








01. 습관처럼 - Chic


02. Lovely Feat. Soulman - Chic
 

03. 날 사랑했던 네가 - Chic

Posted by 그래제길


いつかなぁ、
たくさん聞いた時があった。
今日急にこの歌が思い出した。


どうしますか これからは...?
어떡하죠 이젠...?







MV
 


가사



음악방송..

 



'음악이야기' 카테고리의 다른 글

君に会いたくなるから song by 西野カナ  (0) 2010.05.06
습관처럼 song by Chic  (0) 2010.04.28
기억을 걷는 시간 song by Nell  (0) 2010.04.28
기타 코드표 (Guitar Chords)  (0) 2010.04.28
YUI - Again  (0) 2010.04.26
チェリ- song by Spitz  (0) 2010.04.23
Posted by 그래제길
기타 코드표
Guitar Chords







'음악이야기' 카테고리의 다른 글

습관처럼 song by Chic  (0) 2010.04.28
기억을 걷는 시간 song by Nell  (0) 2010.04.28
기타 코드표 (Guitar Chords)  (0) 2010.04.28
YUI - Again  (0) 2010.04.26
チェリ- song by Spitz  (0) 2010.04.23
Stand by U song by 東方神起  (0) 2010.04.21
Posted by 그래제길
2010.04.26 21:52

YUI - again


*PASTE TABS TO NOTEPAD FOR PERFECT VIEW*

Dsus2 - xx0230
B7 - x24242 / x21202

Intro:
Dsus2

e-0---0-----0-----0------
B--3----3-----3-----3----
G---2-----2-----2-----2--
D------------------------
A------------------------
E------------------------

Em D C B7 (x2)
B7

(intro solo):
e-------------------------------------------------------------------------
B------8-7---------8-7-8/10-8-7---------8-7---------8-7-------------------
G----7-----7-----7--------------8-----7-----7-----7-----8b9b8b9b8b9b8b9b8-(pluck once and bend few times)
D-/9----------/9-------------------/9----------/9-------------------------
A-------------------------------------------------------------------------
E-------------------------------------------------------------------------

Verse:
Em D C (x4)
Em Em Em C D (x2)

Chorus:
C D Em
A B
C D Em
Em B
C D Em
A B
C D

Em

repeat Verse

repeat Chorus

Bridge:
F G Am (x2)
F D

Solo:
Eb F Gm
Eb F D

(solo)
e----------------------------------------------------------------------
B----------------------------------------------------------------------
G-2/8-8-8-8-7-7-7-----8-8-8-7-7-7----------7--7b8b7----/8-8-8-10-10-10-
D-----------------8-8-------------8-8--10------------------------------
A----------------------------------------------------------------------
E----------------------------------------------------------------------

e----------------------------------------------------------------------
B-8-8-10-10-10-11-11-11-13-13--15--13--15b16b15------------------------
G----------------------------------------------------------------------
D----------------------------------------------------------------------
A----------------------------------------------------------------------
E----------------------------------------------------------------------

C D Em (x2)
Em B

repeat Chorus

Outro:
Em D C B7 (x2)
B7
Em

(outro solo):
e-------------------------------------------------------------------------
B------8-7---------8-7-8/10-8-7---------8-7---------8-7-------------------
G----7-----7-----7--------------8-----7-----7-----7-----8b9b8b9b8b9b8b9b8-(pluck once and bend few times)
D-/9----------/9-------------------/9----------/9-------------------------
A-------------------------------------------------------------------------
E-------------------------------------------------------------------------

[출처] YUI - Again 기타 악보|작성자 쇼짱

'음악이야기' 카테고리의 다른 글

기억을 걷는 시간 song by Nell  (0) 2010.04.28
기타 코드표 (Guitar Chords)  (0) 2010.04.28
YUI - Again  (0) 2010.04.26
チェリ- song by Spitz  (0) 2010.04.23
Stand by U song by 東方神起  (0) 2010.04.21
なごり雪 (名残雪) song by イルカ  (0) 2010.04.15
Posted by 그래제길
TAG Again, tab, YUI, 악보


그냥그냥.. 이런 노래들이 좋아지는 요즘?
나이가 들어서 그런가..
^^








가사~

'음악이야기' 카테고리의 다른 글

기타 코드표 (Guitar Chords)  (0) 2010.04.28
YUI - Again  (0) 2010.04.26
チェリ- song by Spitz  (0) 2010.04.23
Stand by U song by 東方神起  (0) 2010.04.21
なごり雪 (名残雪) song by イルカ  (0) 2010.04.15
Tokyo song by YUI  (0) 2010.04.03
Posted by 그래제길
이전버튼 1 2 3 이전버튼